Chwyty na gitarę do piosenki: Counting Stars – OneRepublic

 

Chwyty na gitarę do piosenki: Counting stars zespołu OneRepublic

Chwyty:

Kapodaster 4 próg ( Nie masz jeszcze kapodastera ? Kliknij Tutaj )

a – (x-0-2-2-1-0)      C – (x-3-2-0-1-0)      G – (3-2-0-0-0-3)      F – (1-3-3-2-1-1)

Intro:

E|----------------------------------------------------------------------|
H|------1-------1-------1-------1--------0-------0-------1-------1------|
G|------2-------2-------0-------0--------0-------0-------2-------2------|
D|----2---2---2---2---2---2---2---2----0---0---0---0---3---3---3---3----|
A|--0-------0-------3-------3-------------------------------------------|
E|-----------------------------------3-------3-------1-------1----------|

Zwrotka i Refren:

E|----------------------------------------------------------------------|
H|----1---1---1---1---1---1---1---1---0---0---0---0---1---1---1---1-----|
G|----2---2---2---2---0---0---0---0---0---0---0---0---2---2---2---2-----|
D|----2---2---2---2---2---2---2---2---0---0---0---0---3---3---3---3-----|
A|--0---0---0---0---3---3---3---3---------------------------------------|
E|----------------------------------3---3---3---3---1---1---1---1-------|

Intro:

Lately I’ve been, I’ve been losing sleep
Dreaming about the things that we could be
But baby I’ve been, I’ve been prayin’ hard
Said no more counting dollars
We’ll be counting stars
Yeah, we’ll be counting stars

Zwrotka i Refren:

I see this life
Like a swinging vine
Swing my heart across the line
In my face is flashing signs
Seek it out and ya shall find
Old but I’m not that old
Young but I’m not that bold
And I don’t think the world is sold
I’m just doing what we’re told

I feel something so right
Doing the wrong thing
I feel something so wrong
Doing the right thing
I couldn’t lie, couldn’t lie, couldn’t lie
Everything that kills me makes me feel alive

Lately I’ve been, I’ve been losing sleep
Dreaming about the things that we could be
But baby I’ve been, I’ve been prayin’ hard
Said no more counting dollars
We’ll be counting stars
Lately I’ve been, I’ve been losing sleep
Dreaming about the things that we could be
But baby I’ve been, I’ve been prayin’ hard
Said no more counting dollars
We’ll be, we’ll be counting stars

I feel the love
And I feel it burn
Down this river every turn
Hope is a four letter word
Make that money
Watch it burn
Old but I’m not that old
Young but I’m not that bold
And I don’t think the world is sold
I’m just doing what we’re told

And I feel something so wrong
Doing the right thing
I couldn’t lie, couldn’t lie, couldn’t lie
Everything that downs me makes me wanna fly

Lately I’ve been, I’ve been losing sleep
Dreaming about the things that we could be
But baby I’ve been, I’ve been prayin’ hard
Said no more counting dollars
We’ll be counting stars
Lately I’ve been, I’ve been losing sleep
Dreaming about the things that we could be
But baby I’ve been, I’ve been prayin’ hard
Said no more counting dollars
We’ll be, we’ll be counting stars

Take that money
Watch it burn
Sink in the river
The lessons I’ve learned
Take that money
Watch it burn
Sink in the river
The lessons I’ve learned
Take that money
Watch it burn
Sink in the river
The lessons I’ve learned
Take that money
Watch it burn
Sink in the river
The lessons I’ve learned

Everything that kills me makes me feel alive

Lately I’ve been, I’ve been losing sleep
Dreaming about the things that we could be
But baby I’ve been, I’ve been prayin’ hard
Said no more counting dollars
We’ll be counting stars
Lately I’ve been, I’ve been losing sleep
Dreaming about the things that we could be
But baby I’ve been, I’ve been prayin’ hard
Said no more counting dollars
We’ll be, we’ll be counting stars

Take that money
Watch it burn
Sink in the river
The lessons I’ve learned
Take that money
Watch it burn
Sink in the river
The lessons I’ve learned
Take that money
Watch it burn
Sink in the river
The lessons I’ve learned
Take that money
Watch it burn
Sink in the river
The lessons I’ve learned

Dodaj komentarz

Twój adres email nie zostanie opublikowany. Pola, których wypełnienie jest wymagane, są oznaczone symbolem *